guitarguitar.net
Guitar Lessons Basic Guides Songbook Guitar Riffs Guitar chords Guitar tools

Cream - Born Under a Bad Sign guitar riff with tab

 

Cream has made a lot of songs with awesome guitar riffs, and Eric Clapton is recognized as one of the best guitarists of our time. This song features a cool riff in G minor pentatonic. I also added the riff an octave higher at the end to make it a bit more interesting. It's an awesome tune to just play with your friends - it's very nice to improvise to.

 

 

 

 

Born Under a Bad Sign guitar riff, video instruction

 

Tablature for the video


E||---------------------------|---------------------------|
B||--------------3b-----------|---------------------------|
G||--------------3b-------x-x-|-----------x-x---------x-x-|
D||--------3--5------5----x-x-|--------3--x-x---------x-x-|
A||--3--5---------------------|--3--5---------------------|
E||---------------------------|---------------6--3--------|


 
---------------------------|---------------------------|
--------------3b-----------|---------------------------|
--------------3b-------x-x-|-----------x-x---------x-x-|
--------3--5------5----x-x-|--------3--x-x---------x-x-|
--3--5---------------------|--3--5---------------------|
---------------------------|---------------6--3--------|


 
---------------------------|---------------------------|
-----------------5---5-x-x-|--5---5-6--5--4--3---3-----|
-----------------5---5-x-x-|--5---5-6--5--4--3---3-----|
--------3--------4---4-x-x-|--4---4-5--4--3--2---2-----|
--3--5-----5--4--5---5-x-x-|--5---5-6--5--4--3---3-x-x-|
---------------------------|---------------------------|



--------------------------|---------------------------------------|
--3-----------------------|----------------------11b--------------|
--3-----------------------|--------------10--12--12b--12----x-L-x-|
--2-----3-------------x-x-|--L-10-L--12---------------------x-L-x-|
--3--5-----5--------------|---------------------------------------|
--------------6--3--------|---------------------------------------|



-------------------------------------||
-------------------------------------||
--L-----------10b--x-x---------------||
--L-10-L--12-------x-x---------------||
-----------------------13--10--------||
-------------------------------------||

Please like and follow Guitarguitar.net on Facebook!