guitarguitar.net
Guitar Lessons Basic Guides Songbook Guitar Riffs Guitar chords Guitar tools

Led Zeppelin - Good Times Bad times guitar riff with tab

 

This is such an EPIC guitar song. I love how it has a bluesy feel in combination with the major scale (that is, the verse riff). Anyway watch the video to learn the riff. If you want the whole tab, it is below the video. Good luck!

 

 

 

 

 

Good Times Bad Times guitar riff, video instruction

 

Tablature for Good Times, Bad Times


Verse

                    PM PM   PM        PM PM  
E||--------------------------------|-----------------------------||
B||--------------------------------|-----------------------------||
G||--9--9-----------------7----7---|---------------------9--9----||
D||--9--9--------------7----7----7-|-----4--7------------9--9----||
A||--7--7-----------5--------------|--5-------4----5--6--7--7----||
E||--------------------------------|-----------------------------||

PreChorus
 
E||-----------------------------||
B||--------------8-8-8-7--7-7-7-||
G||--------------7-7-7-7--7-7-7-||
D||--7----7--7-7-7-7-7-7--7-7-7-||
A||--7----7--7-7----------------||
E||--5----5--5-5----------------||


E||--------------------------------|-------------------------||
B||--------------10-10-10-9--9-9-9-|-------------------------||
G||---------------9--9--9-9--9-9-9-|-------------------------||
D||--9----9--9-9--9--9--9-9--9-9-9-|--9----9--9--9--9--9--9--||
A||--9----9--9-9-------------------|--9----9--9--9--9--9--9--||
E||--7----7--7-7-------------------|--7----7--7--7--7--7--7--||


Small chorus "bassline"
        PM                        
E||-----------------------------||
B||-----------------------------||
G||-----------------------------||
D||--------9-7------------------||
A||-------------9--8--7---------||
E||--7--7----------------10-7---||

Chorus


E||------------------------------||
B||--------------11-9-11--9-7-9--||
G||--------------11-9-11--9-7-9--||
D||--4--4--------11-9-11--9-7-9--||
A||--4--4------------------------||
E||--2--2------------------------||

Back to Classic Guitar Riffs

 

Please like and follow Guitarguitar.net on Facebook!