guitarguitar.net
Guitar Lessons Basic Guides Songbook Guitar Riffs Guitar chords Guitar tools

Guns n Roses - Sweet Child o' mine chords for guitar

Chords

Originally this song is tuned in D, therefore all the strings should be DAFCGD

However, the chords are still printed as if it was a standard E tuning.

--- C    A   G    D    Em  
E||-0----0---3----2----0----
B||-1----2---3----3----0----
G||-0----2---0----2----0----
D||-2----2---0----0----2----
A||-3----0---2---------2----
E||----------3---------0----

Click here to se regular chord diagrams

 

Intro

A lot of people want to be able to play the solo in the intro, so here you go:

D||------------------15------14------|------------------15------14------|
A||------15--------------------------|------15--------------------------|
F||----------14--12------14------14--|----------14--12------14------14--|
C||--12------------------------------|--12------------------------------|
G||----------------------------------|----------------------------------|
D||----------------------------------|----------------------------------|

------------------15------14------|------------------15------14------|
------15--------------------------|------15--------------------------|
----------14--12------14------14--|----------14--12------14------14--|
--14------------------------------|--14------------------------------|
----------------------------------|----------------------------------|
----------------------------------|----------------------------------|

------------------15------14------|------------------15------14------|
------15--------------------------|------15--------------------------|
--12------14--12------14------14--|--12------14--12------14------14--|
----------------------------------|----------------------------------|
----------------------------------|----------------------------------|
----------------------------------|----------------------------------|

--12--------------12------14------|--15------14------12------------|-------------------||
----------15----------------------|--------------------------15----|--L----------------||
------14------14------14------14--|------14------14------14--------|-------------------||
----------------------------------|--------------------------------|-------------------||
----------------------------------|--------------------------------|-------------------||
----------------------------------|--------------------------------|-------------------||
 

Lyrics with chords

Verse 1
D
She's got a smile that it seems to me
C
Reminds me of childhood memories
G
Where everything
D
Was as fresh as the bright blue sky
D
Now and then when I see her face
C
It takes me away to that special place
G
And if I stared too long
D
I'd probably break down and cry
Chords
C                         G             D
Woah oh woah sweet child o' mine
C G D
Woah oh oh oh sweet love of mine

Instrumental
C     G    D

Verse 2
D
She's got eyes of the bluest skies
C
As if they thought of rain
G
I'd hate to look into those eyes
D
And see an ounce of pain
D
Her hair reminds me of a warm safe place
C
Where as a child I'd hide
G
And pray for the thunder
D
And the rain to quietly pass me by
Chords
C                        G                  D
Woah oh woah sweet child o' mine
C G D
Ohhhhh oh oh oh sweet love of mine
Solo
C    G   D  
C G D
Chords
C                        G                  D
Woah oh woah sweet child o' mine
C G D
Woah oh oh oh sweet love of mine
C G D
Woah oh woah sweet child o' mine
C G D
Ohhhhh oh oh oh sweet love of mine
Solo
Em C Bm Am 8x
Bridge / outro
Em                        G              A          C  D
Where do we go, Where do we go now, Where do we go
Em G A C D
Where do we go-oh, Where do we go , Ooh where do we go now
Em G A C D
Where do we go, Sweet child, Ooh where do we go now

[then the chords are basically the same]

Ooh Where do we go now
Ah ah ah ah a-ooh woah
Where do we go
Ooooh oh where do we go now
Oh where do we go
Where do we go now

Where do we go-oh-oh
Woah ooh where do we go now

Ooh no no no no no

Sweet child
Sweet child o' mine

Please like and follow Guitarguitar.net on Facebook!

 

← Back to the Guitar Song Book