guitarguitar.net
Guitar Lessons Basic Guides Songbook Guitar Riffs Guitar chords Guitar tools

Nirvana - About a girl chords for guitar

Chords

 Em   G    D#5  G#5     F#5  E5   E5   A5   C5   B5
--0----3--------------|----------------------------
--0----3--------------|----------------------------
--0----0----6---------|------------9---------5----4
--2----0----6----6----|--4----2----9----7----5----4
--2----2----4----6----|--4----2----7----7----3----2
--0----3---------4----|--2----0---------5----------

Click here to se regular chord diagrams

 

 

These fifth chords are played in the chorus:

2x
---------------------------------
---------------------------------
--6-6-X---------------------o----
--6-6-X-6-6-X-44-X-4-444----o----
--4-4-X-6-6-X-44-X-4-444----------
--------4-4-X-22-X-2-222-----
------

1x
------------------------------
------------------------------
-------99XX------5--55/4------
-2-XX--99XX-77-X-5--55/4------
-2-XX--77XX-77-X-3--33/2------
-0-XX-------55-X--------------

Lyrics with chords

Verse
Em G        Em       G
I need an easy friend
Em G        Em       G
(I do) With an ear to lend
Em G        Em       G
(I do) Think you fit this shoe
Em G        Em       G
(I do) Won't you have a clue

Chorus

I'll take advantage while
You hang me out to dry
But I can't see you every night
For Free

I'm standing in your line
(I do) Hope you have the time
(I do) Pick a number too
(I do) Keep a date with you

I'll take advantage while
You hang me out to dry
But I can't see you every night
For Free

I need an easy friend
(I do) With an ear to lend
(I do) Think you fit this shoe
(I do) Won't you have a clue

I'll take advantage while
You hang me out to dry
But I can't see you every night
No, I can't see you every night
For Free

I do ...
I do ...
I do ...
I do ...

Please like and follow Guitarguitar.net on Facebook!

LetsSingIt

← Back to the Guitar Song Book